ISO-10303-21;
HEADER;
FILE_DESCRIPTION (( 'STEP AP203' ),
    '1' );
FILE_NAME ('QM-CAQWP-15-900-2100-M.STEP',
    '2021-01-05T02:44:53',
    ( '' ),
    ( '' ),
    'SwSTEP 2.0',
    'SolidWorks 2020',
    '' );
FILE_SCHEMA (( 'CONFIG_CONTROL_DESIGN' ));
ENDSEC;

DATA;
#1 = DIRECTION ( 'NONE',  ( 0.000000000000000000, 0.000000000000000000, 1.000000000000000000 ) ) ;
#2 = LINE ( 'NONE', #108, #174 ) ;
#3 = CARTESIAN_POINT ( 'NONE',  ( -3.000000000000000000, 0.000000000000000000, 0.000000000000000000 ) ) ;
#4 = DIRECTION ( 'NONE',  ( 1.000000000000000000, 0.000000000000000000, 0.000000000000000000 ) ) ;
#5 = DIRECTION ( 'NONE',  ( -1.000000000000000000, -0.000000000000000000, -0.000000000000000000 ) ) ;
#6 = DIRECTION ( 'NONE',  ( 0.000000000000000000, 0.000000000000000000, 1.000000000000000000 ) ) ;
#7 = DIRECTION ( 'NONE',  ( -1.000000000000000000, -0.000000000000000000, -0.000000000000000000 ) ) ;
#8 = DIRECTION ( 'NONE',  ( -1.000000000000000000, -0.000000000000000000, -0.000000000000000000 ) ) ;
#9 = APPLICATION_PROTOCOL_DEFINITION ( 'international standard', 'config_control_design', 1994, #209 ) ;
#10 = DIRECTION ( 'NONE',  ( 0.000000000000000000, 0.000000000000000000, -1.000000000000000000 ) ) ;
#11 = DATE_AND_TIME ( #169, #72 ) ;
#12 = AXIS2_PLACEMENT_3D ( 'NONE', #188, #37, #243 ) ;
#13 = CC_DESIGN_APPROVAL ( #329, ( #62 ) ) ;
#14 = AXIS2_PLACEMENT_3D ( 'NONE', #105, #226, #328 ) ;
#15 = ADVANCED_FACE ( 'NONE', ( #127 ), #130, .T. ) ;
#16 = VECTOR ( 'NONE', #210, 1000.000000000000000 ) ;
#17 = PRODUCT_DEFINITION ( 'UNKNOWN', '', #250, #46 ) ;
#18 = ORIENTED_EDGE ( 'NONE', *, *, #86, .T. ) ;
#19 = ORIENTED_EDGE ( 'NONE', *, *, #236, .F. ) ;
#20 = ORIENTED_EDGE ( 'NONE', *, *, #21, .F. ) ;
#21 = EDGE_CURVE ( 'NONE', #51, #48, #101, .T. ) ;
#22 = EDGE_LOOP ( 'NONE', ( #323, #304 ) ) ;
#23 = AXIS2_PLACEMENT_3D ( 'NONE', #112, #263, #92 ) ;
#24 = PLANE ( 'NONE',  #254 ) ;
#25 = FACE_OUTER_BOUND ( 'NONE', #22, .T. ) ;
#26 = DIRECTION ( 'NONE',  ( 0.000000000000000000, 0.000000000000000000, 1.000000000000000000 ) ) ;
#27 = DIRECTION ( 'NONE',  ( -1.000000000000000000, -0.000000000000000000, -0.000000000000000000 ) ) ;
#28 = DIRECTION ( 'NONE',  ( 0.000000000000000000, 0.000000000000000000, -1.000000000000000000 ) ) ;
#29 = LINE ( 'NONE', #232, #104 ) ;
#30 =( NAMED_UNIT ( * ) SI_UNIT ( $, .STERADIAN. ) SOLID_ANGLE_UNIT ( ) );
#31 = APPROVAL_DATE_TIME ( #296, #329 ) ;
#32 = LOCAL_TIME ( 10, 44, 53.00000000000000000, #192 ) ;
#33 = CARTESIAN_POINT ( 'NONE',  ( -3.000000000000000000, 9.184850993605147944E-16, -7.500000000000000000 ) ) ;
#34 = CARTESIAN_POINT ( 'NONE',  ( 3.000000000000000000, 0.000000000000000000, 0.000000000000000000 ) ) ;
#35 = DATE_AND_TIME ( #186, #325 ) ;
#36 = LINE ( 'NONE', #184, #204 ) ;
#37 = DIRECTION ( 'NONE',  ( 0.000000000000000000, 0.000000000000000000, 1.000000000000000000 ) ) ;
#38 = CYLINDRICAL_SURFACE ( 'NONE', #175, 7.499999999999998224 ) ;
#39 = EDGE_LOOP ( 'NONE', ( #19, #199 ) ) ;
#40 = APPROVAL ( #314, 'UNSPECIFIED' ) ;
#41 = COORDINATED_UNIVERSAL_TIME_OFFSET ( 8, 0, .AHEAD. ) ;
#42 = APPROVAL_PERSON_ORGANIZATION ( #212, #329, #235 ) ;
#43 = CIRCLE ( 'NONE', #131, 7.500000000000000000 ) ;
#44 = CIRCLE ( 'NONE', #290, 12.69999999999999929 ) ;
#45 = CYLINDRICAL_SURFACE ( 'NONE', #244, 7.499999999999998224 ) ;
#46 = DESIGN_CONTEXT ( 'detailed design', #209, 'design' ) ;
#47 = ORIENTED_EDGE ( 'NONE', *, *, #97, .F. ) ;
#48 = VERTEX_POINT ( 'NONE', #205 ) ;
#49 = ADVANCED_FACE ( 'NONE', ( #206 ), #45, .F. ) ;
#50 = ORIENTED_EDGE ( 'NONE', *, *, #160, .T. ) ;
#51 = VERTEX_POINT ( 'NONE', #157 ) ;
#52 = DIRECTION ( 'NONE',  ( 0.000000000000000000, 0.000000000000000000, 1.000000000000000000 ) ) ;
#53 = LINE ( 'NONE', #161, #16 ) ;
#54 = DIRECTION ( 'NONE',  ( 0.000000000000000000, 0.000000000000000000, 1.000000000000000000 ) ) ;
#55 = DIRECTION ( 'NONE',  ( 0.000000000000000000, 0.000000000000000000, 1.000000000000000000 ) ) ;
#56 = ADVANCED_FACE ( 'NONE', ( #256, #25 ), #24, .F. ) ;
#57 = CARTESIAN_POINT ( 'NONE',  ( -3.000000000000000000, 0.000000000000000000, 0.000000000000000000 ) ) ;
#58 = DIRECTION ( 'NONE',  ( -1.000000000000000000, -0.000000000000000000, -0.000000000000000000 ) ) ;
#59 = CIRCLE ( 'NONE', #23, 7.499999999999997335 ) ;
#60 = CARTESIAN_POINT ( 'NONE',  ( 3.000000000000000000, 9.184850993605144000E-16, -7.499999999999997335 ) ) ;
#61 = CIRCLE ( 'NONE', #330, 7.499999999999998224 ) ;
#62 = SECURITY_CLASSIFICATION ( '', '', #292 ) ;
#63 = CARTESIAN_POINT ( 'NONE',  ( 3.000000000000000000, 12.69999999999999929, 0.000000000000000000 ) ) ;
#64 = SHAPE_DEFINITION_REPRESENTATION ( #278, #185 ) ;
#65 = DIRECTION ( 'NONE',  ( -1.000000000000000000, -0.000000000000000000, -0.000000000000000000 ) ) ;
#66 = COORDINATED_UNIVERSAL_TIME_OFFSET ( 8, 0, .AHEAD. ) ;
#67 = EDGE_CURVE ( 'NONE', #303, #73, #289, .T. ) ;
#68 = CC_DESIGN_APPROVAL ( #40, ( #250 ) ) ;
#69 = ORIENTED_EDGE ( 'NONE', *, *, #266, .F. ) ;
#70 = AXIS2_PLACEMENT_3D ( 'NONE', #3, #27, #139 ) ;
#71 = AXIS2_PLACEMENT_3D ( 'NONE', #190, #208, #163 ) ;
#72 = LOCAL_TIME ( 10, 44, 53.00000000000000000, #41 ) ;
#73 = VERTEX_POINT ( 'NONE', #136 ) ;
#74 = ORIENTED_EDGE ( 'NONE', *, *, #147, .F. ) ;
#75 = ORIENTED_EDGE ( 'NONE', *, *, #160, .F. ) ;
#76 = VERTEX_POINT ( 'NONE', #282 ) ;
#77 = CC_DESIGN_PERSON_AND_ORGANIZATION_ASSIGNMENT ( #121, #268, ( #203 ) ) ;
#78 = LOCAL_TIME ( 10, 44, 53.00000000000000000, #167 ) ;
#79 = ORIENTED_EDGE ( 'NONE', *, *, #97, .T. ) ;
#80 = CARTESIAN_POINT ( 'NONE',  ( 3.000000000000000000, 0.000000000000000000, 0.000000000000000000 ) ) ;
#81 = CARTESIAN_POINT ( 'NONE',  ( -1.614212418857619014, 0.000000000000000000, 0.000000000000000000 ) ) ;
#82 = CARTESIAN_POINT ( 'NONE',  ( -3.000000000000000000, 7.500000000000000000, 0.000000000000000000 ) ) ;
#83 = FACE_OUTER_BOUND ( 'NONE', #153, .T. ) ;
#84 = DIRECTION ( 'NONE',  ( -1.000000000000000000, -0.000000000000000000, -0.000000000000000000 ) ) ;
#85 = APPROVAL_DATE_TIME ( #320, #222 ) ;
#86 = EDGE_CURVE ( 'NONE', #180, #332, #220, .T. ) ;
#87 = CARTESIAN_POINT ( 'NONE',  ( -1.614212418857619014, 0.000000000000000000, 0.000000000000000000 ) ) ;
#88 = DIRECTION ( 'NONE',  ( -0.000000000000000000, 0.000000000000000000, 1.000000000000000000 ) ) ;
#89 = VECTOR ( 'NONE', #291, 1000.000000000000000 ) ;
#90 = AXIS2_PLACEMENT_3D ( 'NONE', #109, #211, #165 ) ;
#91 = APPROVAL_ROLE ( '' ) ;
#92 = DIRECTION ( 'NONE',  ( 0.000000000000000000, 0.000000000000000000, 1.000000000000000000 ) ) ;
#93 = EDGE_CURVE ( 'NONE', #96, #51, #189, .T. ) ;
#94 = PERSON_AND_ORGANIZATION ( #227, #154 ) ;
#95 = PERSON_AND_ORGANIZATION ( #227, #154 ) ;
#96 = VERTEX_POINT ( 'NONE', #233 ) ;
#97 = EDGE_CURVE ( 'NONE', #149, #197, #43, .T. ) ;
#98 = ORIENTED_EDGE ( 'NONE', *, *, #283, .T. ) ;
#99 = CC_DESIGN_PERSON_AND_ORGANIZATION_ASSIGNMENT ( #146, #140, ( #17 ) ) ;
#100 = EDGE_LOOP ( 'NONE', ( #75, #253, #271, #324 ) ) ;
#101 = LINE ( 'NONE', #200, #272 ) ;
#102 = AXIS2_PLACEMENT_3D ( 'NONE', #164, #267, #55 ) ;
#103 = ORIENTED_EDGE ( 'NONE', *, *, #201, .F. ) ;
#104 = VECTOR ( 'NONE', #65, 1000.000000000000000 ) ;
#105 = CARTESIAN_POINT ( 'NONE',  ( -1.614212418857619014, 0.000000000000000000, 0.000000000000000000 ) ) ;
#106 = FACE_OUTER_BOUND ( 'NONE', #275, .T. ) ;
#107 = CARTESIAN_POINT ( 'NONE',  ( -3.000000000000000000, 0.000000000000000000, 0.000000000000000000 ) ) ;
#108 = CARTESIAN_POINT ( 'NONE',  ( -1.614212418857619014, 9.184850993605145972E-16, -7.499999999999998224 ) ) ;
#109 = CARTESIAN_POINT ( 'NONE',  ( -0.5000000000000004441, 0.000000000000000000, 0.000000000000000000 ) ) ;
#110 = CALENDAR_DATE ( 2021, 5, 1 ) ;
#111 = EDGE_CURVE ( 'NONE', #76, #48, #129, .T. ) ;
#112 = CARTESIAN_POINT ( 'NONE',  ( 3.000000000000000000, 0.000000000000000000, 0.000000000000000000 ) ) ;
#113 = PERSON_AND_ORGANIZATION_ROLE ( 'creator' ) ;
#114 = CARTESIAN_POINT ( 'NONE',  ( -3.000000000000000000, 0.000000000000000000, 7.500000000000000000 ) ) ;
#115 = DATE_TIME_ROLE ( 'creation_date' ) ;
#116 = FACE_OUTER_BOUND ( 'NONE', #179, .T. ) ;
#117 = AXIS2_PLACEMENT_3D ( 'NONE', #307, #133, #132 ) ;
#118 = AXIS2_PLACEMENT_3D ( 'NONE', #257, #215, #88 ) ;
#119 = APPROVAL_PERSON_ORGANIZATION ( #94, #40, #194 ) ;
#120 = ORIENTED_EDGE ( 'NONE', *, *, #111, .F. ) ;
#121 = PERSON_AND_ORGANIZATION ( #227, #154 ) ;
#122 = AXIS2_PLACEMENT_3D ( 'NONE', #162, #259, #52 ) ;
#123 = EDGE_LOOP ( 'NONE', ( #18, #152 ) ) ;
#124 = MANIFOLD_SOLID_BREP ( 'Ðý×', #270 ) ;
#125 = ADVANCED_FACE ( 'NONE', ( #170 ), #137, .T. ) ;
#126 = VERTEX_POINT ( 'NONE', #238 ) ;
#127 = FACE_OUTER_BOUND ( 'NONE', #178, .T. ) ;
#128 = ORIENTED_EDGE ( 'NONE', *, *, #274, .T. ) ;
#129 = CIRCLE ( 'NONE', #298, 12.69999999999999929 ) ;
#130 = CYLINDRICAL_SURFACE ( 'NONE', #14, 12.69999999999999929 ) ;
#131 = AXIS2_PLACEMENT_3D ( 'NONE', #231, #181, #1 ) ;
#132 = DIRECTION ( 'NONE',  ( 0.000000000000000000, 0.000000000000000000, 1.000000000000000000 ) ) ;
#133 = DIRECTION ( 'NONE',  ( -1.000000000000000000, -0.000000000000000000, -0.000000000000000000 ) ) ;
#134 = DIRECTION ( 'NONE',  ( -1.000000000000000000, -0.000000000000000000, -0.000000000000000000 ) ) ;
#135 = ADVANCED_FACE ( 'NONE', ( #116 ), #182, .F. ) ;
#136 = CARTESIAN_POINT ( 'NONE',  ( 0.5000000000000008882, 9.184850993605147944E-16, -7.500000000000000000 ) ) ;
#137 = CYLINDRICAL_SURFACE ( 'NONE', #229, 12.69999999999999929 ) ;
#138 = CARTESIAN_POINT ( 'NONE',  ( -1.614212418857619014, 0.000000000000000000, 0.000000000000000000 ) ) ;
#139 = DIRECTION ( 'NONE',  ( 0.000000000000000000, 0.000000000000000000, 1.000000000000000000 ) ) ;
#140 = PERSON_AND_ORGANIZATION_ROLE ( 'creator' ) ;
#141 = EDGE_CURVE ( 'NONE', #332, #180, #59, .T. ) ;
#142 = DIRECTION ( 'NONE',  ( 0.000000000000000000, 0.000000000000000000, 1.000000000000000000 ) ) ;
#143 = APPROVAL_DATE_TIME ( #269, #40 ) ;
#144 = ORIENTED_EDGE ( 'NONE', *, *, #147, .T. ) ;
#145 = PERSON_AND_ORGANIZATION_ROLE ( 'classification_officer' ) ;
#146 = PERSON_AND_ORGANIZATION ( #227, #154 ) ;
#147 = EDGE_CURVE ( 'NONE', #96, #76, #29, .T. ) ;
#148 = CIRCLE ( 'NONE', #331, 12.69999999999999929 ) ;
#149 = VERTEX_POINT ( 'NONE', #33 ) ;
#150 = CARTESIAN_POINT ( 'NONE',  ( -1.614212418857619014, 0.000000000000000000, 0.000000000000000000 ) ) ;
#151 = ADVANCED_FACE ( 'NONE', ( #106, #284 ), #193, .F. ) ;
#152 = ORIENTED_EDGE ( 'NONE', *, *, #141, .T. ) ;
#153 = EDGE_LOOP ( 'NONE', ( #155, #306 ) ) ;
#154 = ORGANIZATION ( 'UNSPECIFIED', 'UNSPECIFIED', '' ) ;
#155 = ORIENTED_EDGE ( 'NONE', *, *, #67, .F. ) ;
#156 = EDGE_LOOP ( 'NONE', ( #297, #273, #176, #98 ) ) ;
#157 = CARTESIAN_POINT ( 'NONE',  ( 3.000000000000000000, 0.000000000000000000, 12.69999999999999929 ) ) ;
#158 = CC_DESIGN_APPROVAL ( #222, ( #17 ) ) ;
#159 = DIRECTION ( 'NONE',  ( 0.000000000000000000, 0.000000000000000000, 1.000000000000000000 ) ) ;
#160 = EDGE_CURVE ( 'NONE', #332, #73, #2, .T. ) ;
#161 = CARTESIAN_POINT ( 'NONE',  ( -1.614212418857619014, 0.000000000000000000, 7.499999999999998224 ) ) ;
#162 = CARTESIAN_POINT ( 'NONE',  ( 3.000000000000000000, 0.000000000000000000, 0.000000000000000000 ) ) ;
#163 = DIRECTION ( 'NONE',  ( 0.000000000000000000, 0.000000000000000000, -1.000000000000000000 ) ) ;
#164 = CARTESIAN_POINT ( 'NONE',  ( -1.614212418857619014, 0.000000000000000000, 0.000000000000000000 ) ) ;
#165 = DIRECTION ( 'NONE',  ( 0.000000000000000000, 0.000000000000000000, -1.000000000000000000 ) ) ;
#166 = ADVANCED_FACE ( 'NONE', ( #234 ), #213, .F. ) ;
#167 = COORDINATED_UNIVERSAL_TIME_OFFSET ( 8, 0, .AHEAD. ) ;
#168 = CARTESIAN_POINT ( 'NONE',  ( 0.5000000000000008882, 0.000000000000000000, 0.000000000000000000 ) ) ;
#169 = CALENDAR_DATE ( 2021, 5, 1 ) ;
#170 = FACE_OUTER_BOUND ( 'NONE', #172, .T. ) ;
#171 = APPLICATION_PROTOCOL_DEFINITION ( 'international standard', 'config_control_design', 1994, #258 ) ;
#172 = EDGE_LOOP ( 'NONE', ( #302, #144, #225, #20 ) ) ;
#173 = UNCERTAINTY_MEASURE_WITH_UNIT (LENGTH_MEASURE( 1.000000000000000082E-05 ), #264, 'distance_accuracy_value', 'NONE');
#174 = VECTOR ( 'NONE', #7, 1000.000000000000000 ) ;
#175 = AXIS2_PLACEMENT_3D ( 'NONE', #138, #58, #237 ) ;
#176 = ORIENTED_EDGE ( 'NONE', *, *, #266, .T. ) ;
#177 = ORIENTED_EDGE ( 'NONE', *, *, #279, .T. ) ;
#178 = EDGE_LOOP ( 'NONE', ( #74, #195, #321, #120 ) ) ;
#179 = EDGE_LOOP ( 'NONE', ( #249, #177, #79, #69 ) ) ;
#180 = VERTEX_POINT ( 'NONE', #312 ) ;
#181 = DIRECTION ( 'NONE',  ( -1.000000000000000000, -0.000000000000000000, -0.000000000000000000 ) ) ;
#182 = CYLINDRICAL_SURFACE ( 'NONE', #102, 7.499999999999998224 ) ;
#183 = CARTESIAN_POINT ( 'NONE',  ( -0.5000000000000004441, 0.000000000000000000, 0.000000000000000000 ) ) ;
#184 = CARTESIAN_POINT ( 'NONE',  ( -1.614212418857619014, 9.184850993605145972E-16, -7.499999999999998224 ) ) ;
#185 = ADVANCED_BREP_SHAPE_REPRESENTATION ( 'QM-CAQWP-15-900-2100-M', ( #124, #12 ), #301 ) ;
#186 = CALENDAR_DATE ( 2021, 5, 1 ) ;
#187 = DIRECTION ( 'NONE',  ( 1.000000000000000000, 0.000000000000000000, 0.000000000000000000 ) ) ;
#188 = CARTESIAN_POINT ( 'NONE',  ( 0.000000000000000000, 0.000000000000000000, 0.000000000000000000 ) ) ;
#189 = CIRCLE ( 'NONE', #122, 12.69999999999999929 ) ;
#190 = CARTESIAN_POINT ( 'NONE',  ( -0.5000000000000004441, 7.500000000000000000, 0.000000000000000000 ) ) ;
#191 = CIRCLE ( 'NONE', #90, 7.499999999999998224 ) ;
#192 = COORDINATED_UNIVERSAL_TIME_OFFSET ( 8, 0, .AHEAD. ) ;
#193 = PLANE ( 'NONE',  #202 ) ;
#194 = APPROVAL_ROLE ( '' ) ;
#195 = ORIENTED_EDGE ( 'NONE', *, *, #93, .T. ) ;
#196 = APPROVAL_STATUS ( 'not_yet_approved' ) ;
#197 = VERTEX_POINT ( 'NONE', #114 ) ;
#198 = CC_DESIGN_DATE_AND_TIME_ASSIGNMENT ( #35, #115, ( #17 ) ) ;
#199 = ORIENTED_EDGE ( 'NONE', *, *, #335, .F. ) ;
#200 = CARTESIAN_POINT ( 'NONE',  ( -1.614212418857619014, 0.000000000000000000, 12.69999999999999929 ) ) ;
#201 = EDGE_CURVE ( 'NONE', #180, #303, #53, .T. ) ;
#202 = AXIS2_PLACEMENT_3D ( 'NONE', #63, #265, #310 ) ;
#203 = PRODUCT ( 'QM-CAQWP-15-900-2100-M', 'QM-CAQWP-15-900-2100-M', '', ( #221 ) ) ;
#204 = VECTOR ( 'NONE', #84, 1000.000000000000000 ) ;
#205 = CARTESIAN_POINT ( 'NONE',  ( -3.000000000000000000, 0.000000000000000000, 12.69999999999999929 ) ) ;
#206 = FACE_OUTER_BOUND ( 'NONE', #295, .T. ) ;
#207 = ADVANCED_FACE ( 'NONE', ( #260 ), #308, .F. ) ;
#208 = DIRECTION ( 'NONE',  ( 1.000000000000000000, 0.000000000000000000, 0.000000000000000000 ) ) ;
#209 = APPLICATION_CONTEXT ( 'configuration controlled 3d designs of mechanical parts and assemblies' ) ;
#210 = DIRECTION ( 'NONE',  ( -1.000000000000000000, -0.000000000000000000, -0.000000000000000000 ) ) ;
#211 = DIRECTION ( 'NONE',  ( 1.000000000000000000, 0.000000000000000000, 0.000000000000000000 ) ) ;
#212 = PERSON_AND_ORGANIZATION ( #227, #154 ) ;
#213 = PLANE ( 'NONE',  #71 ) ;
#214 = PRODUCT_RELATED_PRODUCT_CATEGORY ( 'detail', '', ( #203 ) ) ;
#215 = DIRECTION ( 'NONE',  ( -1.000000000000000000, 0.000000000000000000, -0.000000000000000000 ) ) ;
#216 =( NAMED_UNIT ( * ) PLANE_ANGLE_UNIT ( ) SI_UNIT ( $, .RADIAN. ) );
#217 = PERSON_AND_ORGANIZATION ( #227, #154 ) ;
#218 = CIRCLE ( 'NONE', #316, 7.500000000000000000 ) ;
#219 = DIRECTION ( 'NONE',  ( -1.000000000000000000, -0.000000000000000000, -0.000000000000000000 ) ) ;
#220 = CIRCLE ( 'NONE', #318, 7.499999999999997335 ) ;
#221 = MECHANICAL_CONTEXT ( 'NONE', #258, 'mechanical' ) ;
#222 = APPROVAL ( #317, 'UNSPECIFIED' ) ;
#223 = CALENDAR_DATE ( 2021, 5, 1 ) ;
#224 = CC_DESIGN_DATE_AND_TIME_ASSIGNMENT ( #11, #294, ( #62 ) ) ;
#225 = ORIENTED_EDGE ( 'NONE', *, *, #327, .F. ) ;
#226 = DIRECTION ( 'NONE',  ( -1.000000000000000000, -0.000000000000000000, -0.000000000000000000 ) ) ;
#227 = PERSON ( 'UNSPECIFIED', 'UNSPECIFIED', 'UNSPECIFIED', ('UNSPECIFIED'), ('UNSPECIFIED'), ('UNSPECIFIED') ) ;
#228 = ADVANCED_FACE ( 'NONE', ( #83 ), #334, .F. ) ;
#229 = AXIS2_PLACEMENT_3D ( 'NONE', #81, #134, #142 ) ;
#230 = CARTESIAN_POINT ( 'NONE',  ( -1.614212418857619014, 0.000000000000000000, 7.499999999999998224 ) ) ;
#231 = CARTESIAN_POINT ( 'NONE',  ( -3.000000000000000000, 0.000000000000000000, 0.000000000000000000 ) ) ;
#232 = CARTESIAN_POINT ( 'NONE',  ( -1.614212418857619014, 1.555301434917138433E-15, -12.69999999999999929 ) ) ;
#233 = CARTESIAN_POINT ( 'NONE',  ( 3.000000000000000000, 1.555301434917138433E-15, -12.69999999999999929 ) ) ;
#234 = FACE_OUTER_BOUND ( 'NONE', #39, .T. ) ;
#235 = APPROVAL_ROLE ( '' ) ;
#236 = EDGE_CURVE ( 'NONE', #326, #126, #61, .T. ) ;
#237 = DIRECTION ( 'NONE',  ( 0.000000000000000000, 0.000000000000000000, 1.000000000000000000 ) ) ;
#238 = CARTESIAN_POINT ( 'NONE',  ( -0.5000000000000004441, 9.184850993605145972E-16, -7.499999999999998224 ) ) ;
#239 = PERSON_AND_ORGANIZATION_ROLE ( 'design_supplier' ) ;
#240 = ORIENTED_EDGE ( 'NONE', *, *, #283, .F. ) ;
#241 = PERSON_AND_ORGANIZATION ( #227, #154 ) ;
#242 = APPROVAL_PERSON_ORGANIZATION ( #241, #222, #91 ) ;
#243 = DIRECTION ( 'NONE',  ( 1.000000000000000000, 0.000000000000000000, 0.000000000000000000 ) ) ;
#244 = AXIS2_PLACEMENT_3D ( 'NONE', #150, #247, #159 ) ;
#245 = CIRCLE ( 'NONE', #70, 7.500000000000000000 ) ;
#246 = ADVANCED_FACE ( 'NONE', ( #287 ), #38, .F. ) ;
#247 = DIRECTION ( 'NONE',  ( -1.000000000000000000, -0.000000000000000000, -0.000000000000000000 ) ) ;
#248 = CC_DESIGN_PERSON_AND_ORGANIZATION_ASSIGNMENT ( #217, #239, ( #250 ) ) ;
#249 = ORIENTED_EDGE ( 'NONE', *, *, #236, .T. ) ;
#250 = PRODUCT_DEFINITION_FORMATION_WITH_SPECIFIED_SOURCE ( 'ANY', '', #203, .NOT_KNOWN. ) ;
#251 = DIRECTION ( 'NONE',  ( -1.000000000000000000, -0.000000000000000000, -0.000000000000000000 ) ) ;
#252 = CC_DESIGN_PERSON_AND_ORGANIZATION_ASSIGNMENT ( #311, #145, ( #62 ) ) ;
#253 = ORIENTED_EDGE ( 'NONE', *, *, #86, .F. ) ;
#254 = AXIS2_PLACEMENT_3D ( 'NONE', #82, #4, #28 ) ;
#255 = AXIS2_PLACEMENT_3D ( 'NONE', #87, #219, #26 ) ;
#256 = FACE_BOUND ( 'NONE', #299, .T. ) ;
#257 = CARTESIAN_POINT ( 'NONE',  ( 0.5000000000000004441, 7.500000000000000000, 0.000000000000000000 ) ) ;
#258 = APPLICATION_CONTEXT ( 'configuration controlled 3d designs of mechanical parts and assemblies' ) ;
#259 = DIRECTION ( 'NONE',  ( -1.000000000000000000, -0.000000000000000000, -0.000000000000000000 ) ) ;
#260 = FACE_OUTER_BOUND ( 'NONE', #156, .T. ) ;
#261 = CARTESIAN_POINT ( 'NONE',  ( -0.5000000000000004441, 0.000000000000000000, 7.499999999999998224 ) ) ;
#262 = CALENDAR_DATE ( 2021, 5, 1 ) ;
#263 = DIRECTION ( 'NONE',  ( -1.000000000000000000, -0.000000000000000000, -0.000000000000000000 ) ) ;
#264 =( LENGTH_UNIT ( ) NAMED_UNIT ( * ) SI_UNIT ( .MILLI., .METRE. ) );
#265 = DIRECTION ( 'NONE',  ( -1.000000000000000000, 0.000000000000000000, -0.000000000000000000 ) ) ;
#266 = EDGE_CURVE ( 'NONE', #326, #197, #315, .T. ) ;
#267 = DIRECTION ( 'NONE',  ( -1.000000000000000000, -0.000000000000000000, -0.000000000000000000 ) ) ;
#268 = PERSON_AND_ORGANIZATION_ROLE ( 'design_owner' ) ;
#269 = DATE_AND_TIME ( #110, #300 ) ;
#270 = CLOSED_SHELL ( 'NONE', ( #125, #135, #49, #228, #246, #207, #56, #15, #151, #166 ) ) ;
#271 = ORIENTED_EDGE ( 'NONE', *, *, #201, .T. ) ;
#272 = VECTOR ( 'NONE', #251, 1000.000000000000000 ) ;
#273 = ORIENTED_EDGE ( 'NONE', *, *, #335, .T. ) ;
#274 = EDGE_CURVE ( 'NONE', #73, #303, #218, .T. ) ;
#275 = EDGE_LOOP ( 'NONE', ( #305, #276 ) ) ;
#276 = ORIENTED_EDGE ( 'NONE', *, *, #93, .F. ) ;
#277 = ORIENTED_EDGE ( 'NONE', *, *, #141, .F. ) ;
#278 = PRODUCT_DEFINITION_SHAPE ( 'NONE', 'NONE',  #17 ) ;
#279 = EDGE_CURVE ( 'NONE', #126, #149, #36, .T. ) ;
#280 = DIRECTION ( 'NONE',  ( -1.000000000000000000, -0.000000000000000000, -0.000000000000000000 ) ) ;
#281 = DIRECTION ( 'NONE',  ( 0.000000000000000000, 0.000000000000000000, 1.000000000000000000 ) ) ;
#282 = CARTESIAN_POINT ( 'NONE',  ( -3.000000000000000000, 1.555301434917138433E-15, -12.69999999999999929 ) ) ;
#283 = EDGE_CURVE ( 'NONE', #197, #149, #245, .T. ) ;
#284 = FACE_BOUND ( 'NONE', #123, .T. ) ;
#285 = DIRECTION ( 'NONE',  ( -1.000000000000000000, -0.000000000000000000, -0.000000000000000000 ) ) ;
#286 = COORDINATED_UNIVERSAL_TIME_OFFSET ( 8, 0, .AHEAD. ) ;
#287 = FACE_OUTER_BOUND ( 'NONE', #100, .T. ) ;
#288 = DIRECTION ( 'NONE',  ( 0.000000000000000000, 0.000000000000000000, 1.000000000000000000 ) ) ;
#289 = CIRCLE ( 'NONE', #117, 7.500000000000000000 ) ;
#290 = AXIS2_PLACEMENT_3D ( 'NONE', #34, #285, #6 ) ;
#291 = DIRECTION ( 'NONE',  ( -1.000000000000000000, -0.000000000000000000, -0.000000000000000000 ) ) ;
#292 = SECURITY_CLASSIFICATION_LEVEL ( 'unclassified' ) ;
#293 = DIRECTION ( 'NONE',  ( -1.000000000000000000, -0.000000000000000000, -0.000000000000000000 ) ) ;
#294 = DATE_TIME_ROLE ( 'classification_date' ) ;
#295 = EDGE_LOOP ( 'NONE', ( #277, #50, #128, #103 ) ) ;
#296 = DATE_AND_TIME ( #262, #78 ) ;
#297 = ORIENTED_EDGE ( 'NONE', *, *, #279, .F. ) ;
#298 = AXIS2_PLACEMENT_3D ( 'NONE', #107, #5, #281 ) ;
#299 = EDGE_LOOP ( 'NONE', ( #240, #47 ) ) ;
#300 = LOCAL_TIME ( 10, 44, 53.00000000000000000, #286 ) ;
#301 =( GEOMETRIC_REPRESENTATION_CONTEXT ( 3 ) GLOBAL_UNCERTAINTY_ASSIGNED_CONTEXT ( ( #173 ) ) GLOBAL_UNIT_ASSIGNED_CONTEXT ( ( #264, #216, #30 ) ) REPRESENTATION_CONTEXT ( 'NONE', 'WORKASPACE' ) );
#302 = ORIENTED_EDGE ( 'NONE', *, *, #322, .T. ) ;
#303 = VERTEX_POINT ( 'NONE', #313 ) ;
#304 = ORIENTED_EDGE ( 'NONE', *, *, #111, .T. ) ;
#305 = ORIENTED_EDGE ( 'NONE', *, *, #322, .F. ) ;
#306 = ORIENTED_EDGE ( 'NONE', *, *, #274, .F. ) ;
#307 = CARTESIAN_POINT ( 'NONE',  ( 0.5000000000000008882, 0.000000000000000000, 0.000000000000000000 ) ) ;
#308 = CYLINDRICAL_SURFACE ( 'NONE', #255, 7.499999999999998224 ) ;
#309 = CC_DESIGN_PERSON_AND_ORGANIZATION_ASSIGNMENT ( #95, #113, ( #250 ) ) ;
#310 = DIRECTION ( 'NONE',  ( -0.000000000000000000, 0.000000000000000000, 1.000000000000000000 ) ) ;
#311 = PERSON_AND_ORGANIZATION ( #227, #154 ) ;
#312 = CARTESIAN_POINT ( 'NONE',  ( 3.000000000000000000, 0.000000000000000000, 7.499999999999997335 ) ) ;
#313 = CARTESIAN_POINT ( 'NONE',  ( 0.5000000000000008882, 0.000000000000000000, 7.500000000000000000 ) ) ;
#314 = APPROVAL_STATUS ( 'not_yet_approved' ) ;
#315 = LINE ( 'NONE', #230, #89 ) ;
#316 = AXIS2_PLACEMENT_3D ( 'NONE', #168, #293, #319 ) ;
#317 = APPROVAL_STATUS ( 'not_yet_approved' ) ;
#318 = AXIS2_PLACEMENT_3D ( 'NONE', #80, #280, #54 ) ;
#319 = DIRECTION ( 'NONE',  ( 0.000000000000000000, 0.000000000000000000, 1.000000000000000000 ) ) ;
#320 = DATE_AND_TIME ( #223, #32 ) ;
#321 = ORIENTED_EDGE ( 'NONE', *, *, #21, .T. ) ;
#322 = EDGE_CURVE ( 'NONE', #51, #96, #44, .T. ) ;
#323 = ORIENTED_EDGE ( 'NONE', *, *, #327, .T. ) ;
#324 = ORIENTED_EDGE ( 'NONE', *, *, #67, .T. ) ;
#325 = LOCAL_TIME ( 10, 44, 53.00000000000000000, #66 ) ;
#326 = VERTEX_POINT ( 'NONE', #261 ) ;
#327 = EDGE_CURVE ( 'NONE', #48, #76, #148, .T. ) ;
#328 = DIRECTION ( 'NONE',  ( 0.000000000000000000, 0.000000000000000000, 1.000000000000000000 ) ) ;
#329 = APPROVAL ( #196, 'UNSPECIFIED' ) ;
#330 = AXIS2_PLACEMENT_3D ( 'NONE', #183, #187, #10 ) ;
#331 = AXIS2_PLACEMENT_3D ( 'NONE', #57, #8, #288 ) ;
#332 = VERTEX_POINT ( 'NONE', #60 ) ;
#333 = CC_DESIGN_SECURITY_CLASSIFICATION ( #62, ( #250 ) ) ;
#334 = PLANE ( 'NONE',  #118 ) ;
#335 = EDGE_CURVE ( 'NONE', #126, #326, #191, .T. ) ;
ENDSEC;
END-ISO-10303-21;
